  0
SECTION
  2
HEADER
  9
$ACADVER
  1
AC1014
  9
$ACADMAINTVER
 70
     0
  9
$DWGCODEPAGE
  3
ANSI_1252
  9
$INSBASE
 10
0.0
 20
0.0
 30
0.0
  9
$EXTMIN
 10
689523.27608
 20
750914.982957
 30
-0.001526
  9
$EXTMAX
 10
694045.630919
 20
755568.303894
 30
0.0
  9
$LIMMIN
 10
689755.875
 20
750915.125
  9
$LIMMAX
 10
694045.5
 20
755569.9375
  9
$ORTHOMODE
 70
     0
  9
$REGENMODE
 70
     1
  9
$FILLMODE
 70
     1
  9
$QTEXTMODE
 70
     0
  9
$MIRRTEXT
 70
     1
  9
$DRAGMODE
 70
     2
  9
$LTSCALE
 40
1.0
  9
$OSMODE
 70
     0
  9
$ATTMODE
 70
     1
  9
$TEXTSIZE
 40
78.031075
  9
$TRACEWID
 40
0.05
  9
$TEXTSTYLE
  7
STANDARD
  9
$CLAYER
  8
BRIDGE
  9
$CELTYPE
  6
CONTINUOUS
  9
$CECOLOR
 62
    15
  9
$CELTSCALE
 40
1.0
  9
$DELOBJ
 70
     1
  9
$DISPSILH
 70
     0
  9
$DIMSCALE
 40
1.0
  9
$DIMASZ
 40
1.0
  9
$DIMEXO
 40
0.5
  9
$DIMDLI
 40
0.38
  9
$DIMRND
 40
0.0
  9
$DIMDLE
 40
0.0
  9
$DIMEXE
 40
0.5
  9
$DIMTP
 40
0.0
  9
$DIMTM
 40
0.0
  9
$DIMTXT
 40
1.0
  9
$DIMCEN
 40
0.09
  9
$DIMTSZ
 40
0.0
  9
$DIMTOL
 70
     0
  9
$DIMLIM
 70
     0
  9
$DIMTIH
 70
     0
  9
$DIMTOH
 70
     1
  9
$DIMSE1
 70
     1
  9
$DIMSE2
 70
     1
  9
$DIMTAD
 70
     1
  9
$DIMZIN
 70
     0
  9
$DIMBLK
  1

  9
$DIMASO
 70
     1
  9
$DIMSHO
 70
     1
  9
$DIMPOST
  1

  9
$DIMAPOST
  1

  9
$DIMALT
 70
     0
  9
$DIMALTD
 70
     2
  9
$DIMALTF
 40
25.4
  9
$DIMLFAC
 40
1.0
  9
$DIMTOFL
 70
     0
  9
$DIMTVP
 40
0.0
  9
$DIMTIX
 70
     0
  9
$DIMSOXD
 70
     0
  9
$DIMSAH
 70
     0
  9
$DIMBLK1
  1

  9
$DIMBLK2
  1

  9
$DIMSTYLE
  2
STANDARD
  9
$DIMCLRD
 70
     0
  9
$DIMCLRE
 70
     0
  9
$DIMCLRT
 70
     0
  9
$DIMTFAC
 40
1.0
  9
$DIMGAP
 40
0.5
  9
$DIMJUST
 70
     0
  9
$DIMSD1
 70
     0
  9
$DIMSD2
 70
     0
  9
$DIMTOLJ
 70
     1
  9
$DIMTZIN
 70
     0
  9
$DIMALTZ
 70
     0
  9
$DIMALTTZ
 70
     0
  9
$DIMFIT
 70
     5
  9
$DIMUPT
 70
     0
  9
$DIMUNIT
 70
     2
  9
$DIMDEC
 70
     3
  9
$DIMTDEC
 70
     3
  9
$DIMALTU
 70
     2
  9
$DIMALTTD
 70
     2
  9
$DIMTXSTY
  7
STANDARD
  9
$DIMAUNIT
 70
     0
  9
$LUNITS
 70
     2
  9
$LUPREC
 70
     3
  9
$SKETCHINC
 40
0.1
  9
$FILLETRAD
 40
0.5
  9
$AUNITS
 70
     0
  9
$AUPREC
 70
     0
  9
$MENU
  1
acad
  9
$ELEVATION
 40
0.0
  9
$PELEVATION
 40
0.0
  9
$THICKNESS
 40
0.0
  9
$LIMCHECK
 70
     0
  9
$BLIPMODE
 70
     0
  9
$CHAMFERA
 40
0.5
  9
$CHAMFERB
 40
0.5
  9
$CHAMFERC
 40
0.0
  9
$CHAMFERD
 40
0.0
  9
$SKPOLY
 70
     0
  9
$TDCREATE
 40
2451297.376773611
  9
$TDUPDATE
 40
2451297.376773611
  9
$TDINDWG
 40
0.0000000000
  9
$TDUSRTIMER
 40
0.0000000000
  9
$USRTIMER
 70
     1
  9
$ANGBASE
 50
0.0
  9
$ANGDIR
 70
     0
  9
$PDMODE
 70
     0
  9
$PDSIZE
 40
0.0
  9
$PLINEWID
 40
0.0
  9
$COORDS
 70
     1
  9
$SPLFRAME
 70
     0
  9
$SPLINETYPE
 70
     6
  9
$SPLINESEGS
 70
     8
  9
$ATTDIA
 70
     0
  9
$ATTREQ
 70
     1
  9
$HANDLING
 70
     1
  9
$HANDSEED
  5
54
  9
$SURFTAB1
 70
     6
  9
$SURFTAB2
 70
     6
  9
$SURFTYPE
 70
     6
  9
$SURFU
 70
     6
  9
$SURFV
 70
     6
  9
$UCSNAME
  2

  9
$UCSORG
 10
0.0
 20
0.0
 30
0.0
  9
$UCSXDIR
 10
1.0
 20
0.0
 30
0.0
  9
$UCSYDIR
 10
0.0
 20
1.0
 30
0.0
  9
$PUCSNAME
  2

  9
$PUCSORG
 10
0.0
 20
0.0
 30
0.0
  9
$PUCSXDIR
 10
1.0
 20
0.0
 30
0.0
  9
$PUCSYDIR
 10
0.0
 20
1.0
 30
0.0
  9
$USERI1
 70
     0
  9
$USERI2
 70
     0
  9
$USERI3
 70
     0
  9
$USERI4
 70
     0
  9
$USERI5
 70
     0
  9
$USERR1
 40
0.0
  9
$USERR2
 40
0.0
  9
$USERR3
 40
0.0
  9
$USERR4
 40
0.0
  9
$USERR5
 40
0.0
  9
$WORLDVIEW
 70
     1
  9
$SHADEDGE
 70
     3
  9
$SHADEDIF
 70
    70
  9
$TILEMODE
 70
     1
  9
$MAXACTVP
 70
    16
  9
$PINSBASE
 10
0.0
 20
0.0
 30
0.0
  9
$PLIMCHECK
 70
     0
  9
$PEXTMIN
 10
1.000000E+20
 20
1.000000E+20
 30
1.000000E+20
  9
$PEXTMAX
 10
-1.000000E+20
 20
-1.000000E+20
 30
-1.000000E+20
  9
$PLIMMIN
 10
0.0
 20
0.0
  9
$PLIMMAX
 10
12.0
 20
9.0
  9
$UNITMODE
 70
     0
  9
$VISRETAIN
 70
     0
  9
$PLINEGEN
 70
     0
  9
$PSLTSCALE
 70
     1
  9
$TREEDEPTH
 70
  3020
  9
$PICKSTYLE
 70
     1
  9
$CMLSTYLE
  2
STANDARD
  9
$CMLJUST
 70
     0
  9
$CMLSCALE
 40
1.0
  9
$PROXYGRAPHICS
 70
     1
  9
$MEASUREMENT
 70
     0
  0
ENDSEC
  0
SECTION
  2
CLASSES
  0
CLASS
  1
DICTIONARYVAR
  2
AcDbDictionaryVar
  3
"AutoCAD"
 90
        0
280
     0
281
     0
  0
ENDSEC
  0
SECTION
  2
TABLES
  0
TABLE
  2
VPORT
  5
12
100
AcDbSymbolTable
 70
     2
  0
VPORT
  5
53
100
AcDbSymbolTableRecord
100
AcDbViewportTableRecord
  2
*ACTIVE
 70
     0
 10
0.0
 20
0.0
 11
1.0
 21
1.0
 12
691900.68751
 22
753241.643426
 13
0.0
 23
0.0
 14
1.0
 24
1.0
 15
0.0
 25
0.0
 16
0.0
 26
0.0
 36
1.0
 17
0.0
 27
0.0
 37
0.0
 40
4711.126166
 41
1.906639
 42
50.0
 43
0.0
 44
0.0
 50
0.0
 51
0.0
 71
     0
 72
   100
 73
     1
 74
     1
 75
     0
 76
     0
 77
     0
 78
     0
  0
ENDTAB
  0
TABLE
  2
LTYPE
  5
D
100
AcDbSymbolTable
 70
     1
  0
LTYPE
  5
E
100
AcDbSymbolTableRecord
100
AcDbLinetypeTableRecord
  2
BYBLOCK
 70
     0
  3

 72
    65
 73
     0
 40
0.0
  0
LTYPE
  5
F
100
AcDbSymbolTableRecord
100
AcDbLinetypeTableRecord
  2
BYLAYER
 70
     0
  3

 72
    65
 73
     0
 40
0.0
  0
LTYPE
  5
5
100
AcDbSymbolTableRecord
100
AcDbLinetypeTableRecord
  2
CONTINUOUS
 70
     0
  3
Solid line
 72
    65
 73
     0
 40
0.0
  0
ENDTAB
  0
TABLE
  2
LAYER
  5
A
100
AcDbSymbolTable
 70
     2
  0
LAYER
  5
4
100
AcDbSymbolTableRecord
100
AcDbLayerTableRecord
  2
0
 70
     0
 62
    14
  6
CONTINUOUS
  0
LAYER
  5
1B
100
AcDbSymbolTableRecord
100
AcDbLayerTableRecord
  2
BRIDGE
 70
     0
 62
     6
  6
CONTINUOUS
  0
ENDTAB
  0
TABLE
  2
STYLE
  5
B
100
AcDbSymbolTable
 70
     1
  0
STYLE
  5
C
100
AcDbSymbolTableRecord
100
AcDbTextStyleTableRecord
  2
STANDARD
 70
     0
 40
0.0
 41
1.0
 50
0.0
 71
     0
 42
78.031075
  3
txt
  4

  0
ENDTAB
  0
TABLE
  2
VIEW
  5
10
100
AcDbSymbolTable
 70
     0
  0
ENDTAB
  0
TABLE
  2
UCS
  5
11
100
AcDbSymbolTable
 70
     0
  0
ENDTAB
  0
TABLE
  2
APPID
  5
14
100
AcDbSymbolTable
 70
     1
  0
APPID
  5
15
100
AcDbSymbolTableRecord
100
AcDbRegAppTableRecord
  2
ACAD
 70
     0
  0
ENDTAB
  0
TABLE
  2
DIMSTYLE
  5
16
100
AcDbSymbolTable
 70
     1
  0
DIMSTYLE
105
1D
100
AcDbSymbolTableRecord
100
AcDbDimStyleTableRecord
  2
STANDARD
 70
     0
  3

  4

  5

  6

  7

 40
1.0
 41
0.18
 42
0.0625
 43
0.38
 44
0.18
 45
0.0
 46
0.0
 47
0.0
 48
0.0
140
0.18
141
0.09
142
0.0
143
25.4
144
1.0
145
0.0
146
1.0
147
0.09
 71
     0
 72
     0
 73
     1
 74
     1
 75
     0
 76
     0
 77
     0
 78
     0
170
     0
171
     2
172
     0
173
     0
174
     0
175
     0
176
     0
177
     0
178
     0
270
     2
271
     4
272
     4
273
     2
274
     2
340
C
275
     0
280
     0
281
     0
282
     0
283
     1
284
     0
285
     0
286
     0
287
     3
288
     0
  0
ENDTAB
  0
TABLE
  2
BLOCK_RECORD
  5
1
100
AcDbSymbolTable
 70
     0
  0
BLOCK_RECORD
  5
2
100
AcDbSymbolTableRecord
100
AcDbBlockTableRecord
  2
*MODEL_SPACE
  0
BLOCK_RECORD
  5
7
100
AcDbSymbolTableRecord
100
AcDbBlockTableRecord
  2
*PAPER_SPACE
  0
ENDTAB
  0
ENDSEC
  0
SECTION
  2
BLOCKS
  0
BLOCK
  5
3
100
AcDbEntity
  8
0
 62
    15
100
AcDbBlockBegin
  2
*MODEL_SPACE
 70
     0
 10
0.0
 20
0.0
 30
0.0
  3
*MODEL_SPACE
  1

  0
ENDBLK
  5
6
100
AcDbEntity
  8
0
 62
    15
100
AcDbBlockEnd
  0
BLOCK
  5
8
100
AcDbEntity
 67
     1
  8
0
 62
    15
100
AcDbBlockBegin
  2
*PAPER_SPACE
 70
     0
 10
0.0
 20
0.0
 30
0.0
  3
*PAPER_SPACE
  1

  0
ENDBLK
  5
9
100
AcDbEntity
 67
     1
  8
0
 62
    15
100
AcDbBlockEnd
  0
ENDSEC
  0
SECTION
  2
ENTITIES
  0
TEXT
  5
1E
100
AcDbEntity
  8
BRIDGE
  6
CONTINUOUS
 62
    15
100
AcDbText
 10
691798.170802
 20
754353.586248
 30
0.0
 40
78.031075
  1
Pier 12
100
AcDbText
  0
TEXT
  5
1F
100
AcDbEntity
  8
BRIDGE
  6
CONTINUOUS
 62
    15
100
AcDbText
 10
689825.944477
 20
752490.594325
 30
0.0
 40
175.569929
  1
Missouri
100
AcDbText
  0
TEXT
  5
20
100
AcDbEntity
  8
BRIDGE
  6
CONTINUOUS
 62
    15
100
AcDbText
 10
691017.091055
 20
753300.166737
 30
0.0
 40
78.031075
  1
Pier 10
100
AcDbText
  0
LINE
  5
21
100
AcDbEntity
  8
BRIDGE
  6
CONTINUOUS
 62
    14
100
AcDbLine
 10
691885.9375
 20
754636.75
 30
0.0
 11
690893.125
 21
753389.375
 31
0.0
  0
LINE
  5
22
100
AcDbEntity
  8
BRIDGE
  6
CONTINUOUS
 62
    14
100
AcDbLine
 10
691863.6875
 20
754654.5
 30
0.0
 11
690870.75
 21
753407.125
 31
0.0
  0
LINE
  5
23
100
AcDbEntity
  8
BRIDGE
  6
CONTINUOUS
 62
     6
100
AcDbLine
 10
690904.9375
 20
753390.125
 30
0.0
 11
690894.9375
 21
753377.625
 31
0.0
  0
LINE
  5
24
100
AcDbEntity
  8
BRIDGE
  6
CONTINUOUS
 62
     6
100
AcDbLine
 10
690868.9375
 20
753418.75
 30
0.0
 11
690905.0
 21
753390.1875
 31
0.0
  0
LINE
  5
25
100
AcDbEntity
  8
BRIDGE
  6
CONTINUOUS
 62
     6
100
AcDbLine
 10
690869.25
 20
753415.9375
 30
0.0
 11
690902.1875
 21
753389.875
 31
0.0
  0
LINE
  5
26
100
AcDbEntity
  8
BRIDGE
  6
CONTINUOUS
 62
     6
100
AcDbLine
 10
690902.1875
 20
753389.875
 30
0.0
 11
690894.6875
 21
753380.5
 31
0.0
  0
LINE
  5
27
100
AcDbEntity
  8
BRIDGE
  6
CONTINUOUS
 62
     6
100
AcDbLine
 10
690871.0625
 20
753412.625
 30
0.0
 11
690898.5
 21
753390.875
 31
0.0
  0
LINE
  5
28
100
AcDbEntity
  8
BRIDGE
  6
CONTINUOUS
 62
     6
100
AcDbLine
 10
690898.5
 20
753390.875
 30
0.0
 11
690892.875
 21
753383.8125
 31
0.0
  0
LINE
  5
29
100
AcDbEntity
  8
BRIDGE
  6
CONTINUOUS
 62
     6
100
AcDbLine
 10
690870.3125
 20
753411.625
 30
0.0
 11
690897.75
 21
753389.875
 31
0.0
  0
LINE
  5
2A
100
AcDbEntity
  8
BRIDGE
  6
CONTINUOUS
 62
     6
100
AcDbLine
 10
690893.125
 20
753389.375
 30
0.0
 11
690870.8125
 21
753407.0625
 31
0.0
  0
LINE
  5
2B
100
AcDbEntity
  8
BRIDGE
  6
CONTINUOUS
 62
     6
100
AcDbLine
 10
690868.9375
 20
753418.75
 30
0.0
 11
690858.9375
 21
753406.25
 31
0.0
  0
LINE
  5
2C
100
AcDbEntity
  8
BRIDGE
  6
CONTINUOUS
 62
     6
100
AcDbLine
 10
690858.9375
 20
753406.25
 30
0.0
 11
690895.0
 21
753377.6875
 31
0.0
  0
LINE
  5
2D
100
AcDbEntity
  8
BRIDGE
  6
CONTINUOUS
 62
     6
100
AcDbLine
 10
690869.25
 20
753415.9375
 30
0.0
 11
690861.75
 21
753406.625
 31
0.0
  0
LINE
  5
2E
100
AcDbEntity
  8
BRIDGE
  6
CONTINUOUS
 62
     6
100
AcDbLine
 10
690861.75
 20
753406.625
 30
0.0
 11
690894.6875
 21
753380.5
 31
0.0
  0
LINE
  5
2F
100
AcDbEntity
  8
BRIDGE
  6
CONTINUOUS
 62
     6
100
AcDbLine
 10
690871.0625
 20
753412.625
 30
0.0
 11
690865.375
 21
753405.5625
 31
0.0
  0
LINE
  5
30
100
AcDbEntity
  8
BRIDGE
  6
CONTINUOUS
 62
     6
100
AcDbLine
 10
690865.375
 20
753405.5625
 30
0.0
 11
690892.875
 21
753383.8125
 31
0.0
  0
LINE
  5
31
100
AcDbEntity
  8
BRIDGE
  6
CONTINUOUS
 62
     6
100
AcDbLine
 10
690866.25
 20
753406.5625
 30
0.0
 11
690893.6875
 21
753384.8125
 31
0.0
  0
TEXT
  5
32
100
AcDbEntity
  8
BRIDGE
  6
CONTINUOUS
 62
    15
100
AcDbText
 10
691368.576942
 20
753846.384261
 30
0.0
 40
78.031075
  1
Pier 11
100
AcDbText
  0
LINE
  5
33
100
AcDbEntity
  8
BRIDGE
  6
CONTINUOUS
 62
     6
100
AcDbLine
 10
691327.5
 20
753915.8125
 30
0.0
 11
691312.5
 21
753897.0
 31
0.0
  0
LINE
  5
34
100
AcDbEntity
  8
BRIDGE
  6
CONTINUOUS
 62
     6
100
AcDbLine
 10
691327.5
 20
753915.8125
 30
0.0
 11
691286.4375
 21
753948.5
 31
0.0
  0
LINE
  5
35
100
AcDbEntity
  8
BRIDGE
  6
CONTINUOUS
 62
     6
100
AcDbLine
 10
691324.0
 20
753914.6875
 30
0.0
 11
691312.8125
 21
753900.5625
 31
0.0
  0
LINE
  5
36
100
AcDbEntity
  8
BRIDGE
  6
CONTINUOUS
 62
     6
100
AcDbLine
 10
691324.0
 20
753914.6875
 30
0.0
 11
691286.125
 21
753944.9375
 31
0.0
  0
LINE
  5
37
100
AcDbEntity
  8
BRIDGE
  6
CONTINUOUS
 62
     6
100
AcDbLine
 10
691318.375
 20
753917.1875
 30
0.0
 11
691309.125
 21
753905.4375
 31
0.0
  0
LINE
  5
38
100
AcDbEntity
  8
BRIDGE
  6
CONTINUOUS
 62
     6
100
AcDbLine
 10
691318.4375
 20
753917.1875
 30
0.0
 11
691289.875
 21
753940.0
 31
0.0
  0
LINE
  5
39
100
AcDbEntity
  8
BRIDGE
  6
CONTINUOUS
 62
     6
100
AcDbLine
 10
691316.375
 20
753914.5625
 30
0.0
 11
691287.8125
 21
753937.375
 31
0.0
  0
LINE
  5
3A
100
AcDbEntity
  8
BRIDGE
  6
CONTINUOUS
 62
     6
100
AcDbLine
 10
691286.4375
 20
753948.5
 30
0.0
 11
691271.4375
 21
753929.6875
 31
0.0
  0
LINE
  5
3B
100
AcDbEntity
  8
BRIDGE
  6
CONTINUOUS
 62
     6
100
AcDbLine
 10
691312.5
 20
753897.0
 30
0.0
 11
691271.5
 21
753929.75
 31
0.0
  0
LINE
  5
3C
100
AcDbEntity
  8
BRIDGE
  6
CONTINUOUS
 62
     6
100
AcDbLine
 10
691310.625
 20
753913.875
 30
0.0
 11
691288.3125
 21
753931.6875
 31
0.0
  0
LINE
  5
3D
100
AcDbEntity
  8
BRIDGE
  6
CONTINUOUS
 62
     6
100
AcDbLine
 10
691286.125
 20
753944.9375
 30
0.0
 11
691274.9375
 21
753930.8125
 31
0.0
  0
LINE
  5
3E
100
AcDbEntity
  8
BRIDGE
  6
CONTINUOUS
 62
     6
100
AcDbLine
 10
691312.8125
 20
753900.5625
 30
0.0
 11
691274.9375
 21
753930.8125
 31
0.0
  0
LINE
  5
3F
100
AcDbEntity
  8
BRIDGE
  6
CONTINUOUS
 62
     6
100
AcDbLine
 10
691309.125
 20
753905.4375
 30
0.0
 11
691280.5625
 21
753928.25
 31
0.0
  0
LINE
  5
40
100
AcDbEntity
  8
BRIDGE
  6
CONTINUOUS
 62
     6
100
AcDbLine
 10
691289.875
 20
753940.0
 30
0.0
 11
691280.5625
 21
753928.25
 31
0.0
  0
LINE
  5
41
100
AcDbEntity
  8
BRIDGE
  6
CONTINUOUS
 62
     6
100
AcDbLine
 10
691311.1875
 20
753908.0625
 30
0.0
 11
691282.625
 21
753930.875
 31
0.0
  0
LINE
  5
42
100
AcDbEntity
  8
BRIDGE
  6
CONTINUOUS
 62
     6
100
AcDbLine
 10
691740.0
 20
754439.75
 30
0.0
 11
691730.0
 21
754427.25
 31
0.0
  0
LINE
  5
43
100
AcDbEntity
  8
BRIDGE
  6
CONTINUOUS
 62
     6
100
AcDbLine
 10
691704.0
 20
754468.375
 30
0.0
 11
691740.0625
 21
754439.8125
 31
0.0
  0
LINE
  5
44
100
AcDbEntity
  8
BRIDGE
  6
CONTINUOUS
 62
     6
100
AcDbLine
 10
691704.3125
 20
754465.5625
 30
0.0
 11
691737.25
 21
754439.5
 31
0.0
  0
LINE
  5
45
100
AcDbEntity
  8
BRIDGE
  6
CONTINUOUS
 62
     6
100
AcDbLine
 10
691737.25
 20
754439.5
 30
0.0
 11
691729.75
 21
754430.125
 31
0.0
  0
LINE
  5
46
100
AcDbEntity
  8
BRIDGE
  6
CONTINUOUS
 62
     6
100
AcDbLine
 10
691706.125
 20
754462.25
 30
0.0
 11
691733.5625
 21
754440.5
 31
0.0
  0
LINE
  5
47
100
AcDbEntity
  8
BRIDGE
  6
CONTINUOUS
 62
     6
100
AcDbLine
 10
691733.5625
 20
754440.5
 30
0.0
 11
691727.9375
 21
754433.4375
 31
0.0
  0
LINE
  5
48
100
AcDbEntity
  8
BRIDGE
  6
CONTINUOUS
 62
     6
100
AcDbLine
 10
691728.1875
 20
754439.0
 30
0.0
 11
691706.125
 21
754456.5625
 31
0.0
  0
LINE
  5
49
100
AcDbEntity
  8
BRIDGE
  6
CONTINUOUS
 62
     6
100
AcDbLine
 10
691704.0
 20
754468.375
 30
0.0
 11
691694.0
 21
754455.875
 31
0.0
  0
LINE
  5
4A
100
AcDbEntity
  8
BRIDGE
  6
CONTINUOUS
 62
     6
100
AcDbLine
 10
691694.0
 20
754455.875
 30
0.0
 11
691730.0625
 21
754427.3125
 31
0.0
  0
LINE
  5
4B
100
AcDbEntity
  8
BRIDGE
  6
CONTINUOUS
 62
     6
100
AcDbLine
 10
691704.3125
 20
754465.5625
 30
0.0
 11
691696.8125
 21
754456.25
 31
0.0
  0
LINE
  5
4C
100
AcDbEntity
  8
BRIDGE
  6
CONTINUOUS
 62
     6
100
AcDbLine
 10
691696.8125
 20
754456.25
 30
0.0
 11
691729.75
 21
754430.125
 31
0.0
  0
LINE
  5
4D
100
AcDbEntity
  8
BRIDGE
  6
CONTINUOUS
 62
     6
100
AcDbLine
 10
691706.125
 20
754462.25
 30
0.0
 11
691700.4375
 21
754455.1875
 31
0.0
  0
LINE
  5
4E
100
AcDbEntity
  8
BRIDGE
  6
CONTINUOUS
 62
     6
100
AcDbLine
 10
691700.4375
 20
754455.1875
 30
0.0
 11
691727.9375
 21
754433.4375
 31
0.0
  0
LINE
  5
4F
100
AcDbEntity
  8
BRIDGE
  6
CONTINUOUS
 62
     6
100
AcDbLine
 10
691705.375
 20
754461.25
 30
0.0
 11
691732.8125
 21
754439.5
 31
0.0
  0
LINE
  5
50
100
AcDbEntity
  8
BRIDGE
  6
CONTINUOUS
 62
     6
100
AcDbLine
 10
691701.3125
 20
754456.1875
 30
0.0
 11
691728.75
 21
754434.4375
 31
0.0
  0
LINE
  5
51
100
AcDbEntity
  8
BRIDGE
  6
CONTINUOUS
 62
     6
100
AcDbLine
 10
691863.6875
 20
754654.5
 30
0.0
 11
691885.9375
 21
754636.75
 31
0.0
  0
TEXT
  5
52
100
AcDbEntity
  8
BRIDGE
  6
CONTINUOUS
 62
    15
100
AcDbText
 10
692032.494721
 20
754802.264928
 30
0.0
 40
175.569929
  1
Illinois
100
AcDbText
  0
ENDSEC
  0
SECTION
  2
OBJECTS
  0
DICTIONARY
  5
1A
100
AcDbDictionary
  3
ACAD_GROUP
350
18
  3
ACAD_MLINESTYLE
350
19
  0
DICTIONARY
  5
18
102
{ACAD_REACTORS
330
1A
102
}
100
AcDbDictionary
  0
DICTIONARY
  5
19
102
{ACAD_REACTORS
330
1A
102
}
100
AcDbDictionary
  3
STANDARD
350
1C
  0
MLINESTYLE
  5
1C
102
{ACAD_REACTORS
330
19
102
}
100
AcDbMlineStyle
  2
STANDARD
 70
     0
  3

 62
   256
 51
90.0
 52
90.0
 71
     2
 49
0.5
 62
   256
  6
BYLAYER
 49
-0.5
 62
   256
  6
BYLAYER
  0
ENDSEC
  0
EOF
