  0
SECTION
  2
HEADER
  9
$ACADVER
  1
AC1014
  9
$ACADMAINTVER
 70
     0
  9
$DWGCODEPAGE
  3
ANSI_1252
  9
$INSBASE
 10
0.0
 20
0.0
 30
0.0
  9
$EXTMIN
 10
-3402.459717
 20
-1182.589966
 30
0.0
  9
$EXTMAX
 10
394.126322
 20
2345.62793
 30
0.0
  9
$LIMMIN
 10
-3414.959717
 20
-1182.589966
  9
$LIMMAX
 10
377.459686
 20
2345.62793
  9
$ORTHOMODE
 70
     0
  9
$REGENMODE
 70
     1
  9
$FILLMODE
 70
     1
  9
$QTEXTMODE
 70
     0
  9
$MIRRTEXT
 70
     1
  9
$DRAGMODE
 70
     2
  9
$LTSCALE
 40
1.0
  9
$OSMODE
 70
     0
  9
$ATTMODE
 70
     1
  9
$TEXTSIZE
 40
25.0
  9
$TRACEWID
 40
0.05
  9
$TEXTSTYLE
  7
STANDARD
  9
$CLAYER
  8
SETUP714
  9
$CELTYPE
  6
CONTINUOUS
  9
$CECOLOR
 62
     1
  9
$CELTSCALE
 40
1.0
  9
$DELOBJ
 70
     1
  9
$DISPSILH
 70
     0
  9
$DIMSCALE
 40
1.0
  9
$DIMASZ
 40
1.0
  9
$DIMEXO
 40
0.5
  9
$DIMDLI
 40
0.38
  9
$DIMRND
 40
0.0
  9
$DIMDLE
 40
0.0
  9
$DIMEXE
 40
0.5
  9
$DIMTP
 40
0.0
  9
$DIMTM
 40
0.0
  9
$DIMTXT
 40
1.0
  9
$DIMCEN
 40
0.09
  9
$DIMTSZ
 40
0.0
  9
$DIMTOL
 70
     0
  9
$DIMLIM
 70
     0
  9
$DIMTIH
 70
     0
  9
$DIMTOH
 70
     1
  9
$DIMSE1
 70
     1
  9
$DIMSE2
 70
     1
  9
$DIMTAD
 70
     1
  9
$DIMZIN
 70
     0
  9
$DIMBLK
  1

  9
$DIMASO
 70
     1
  9
$DIMSHO
 70
     1
  9
$DIMPOST
  1

  9
$DIMAPOST
  1

  9
$DIMALT
 70
     0
  9
$DIMALTD
 70
     2
  9
$DIMALTF
 40
25.4
  9
$DIMLFAC
 40
1.0
  9
$DIMTOFL
 70
     0
  9
$DIMTVP
 40
0.0
  9
$DIMTIX
 70
     0
  9
$DIMSOXD
 70
     0
  9
$DIMSAH
 70
     0
  9
$DIMBLK1
  1

  9
$DIMBLK2
  1

  9
$DIMSTYLE
  2
STANDARD
  9
$DIMCLRD
 70
     0
  9
$DIMCLRE
 70
     0
  9
$DIMCLRT
 70
     0
  9
$DIMTFAC
 40
1.0
  9
$DIMGAP
 40
0.5
  9
$DIMJUST
 70
     0
  9
$DIMSD1
 70
     0
  9
$DIMSD2
 70
     0
  9
$DIMTOLJ
 70
     1
  9
$DIMTZIN
 70
     0
  9
$DIMALTZ
 70
     0
  9
$DIMALTTZ
 70
     0
  9
$DIMFIT
 70
     5
  9
$DIMUPT
 70
     0
  9
$DIMUNIT
 70
     2
  9
$DIMDEC
 70
     3
  9
$DIMTDEC
 70
     3
  9
$DIMALTU
 70
     2
  9
$DIMALTTD
 70
     2
  9
$DIMTXSTY
  7
STANDARD
  9
$DIMAUNIT
 70
     0
  9
$LUNITS
 70
     2
  9
$LUPREC
 70
     3
  9
$SKETCHINC
 40
0.1
  9
$FILLETRAD
 40
0.5
  9
$AUNITS
 70
     0
  9
$AUPREC
 70
     5
  9
$MENU
  1
acad
  9
$ELEVATION
 40
0.0
  9
$PELEVATION
 40
0.0
  9
$THICKNESS
 40
0.0
  9
$LIMCHECK
 70
     0
  9
$BLIPMODE
 70
     0
  9
$CHAMFERA
 40
0.5
  9
$CHAMFERB
 40
0.5
  9
$CHAMFERC
 40
0.0
  9
$CHAMFERD
 40
0.0
  9
$SKPOLY
 70
     0
  9
$TDCREATE
 40
2451284.419991203
  9
$TDUPDATE
 40
2451284.721172917
  9
$TDINDWG
 40
0.3011817130
  9
$TDUSRTIMER
 40
0.3011817130
  9
$USRTIMER
 70
     1
  9
$ANGBASE
 50
90.0
  9
$ANGDIR
 70
     1
  9
$PDMODE
 70
     0
  9
$PDSIZE
 40
0.0
  9
$PLINEWID
 40
0.0
  9
$COORDS
 70
     1
  9
$SPLFRAME
 70
     0
  9
$SPLINETYPE
 70
     6
  9
$SPLINESEGS
 70
     8
  9
$ATTDIA
 70
     0
  9
$ATTREQ
 70
     1
  9
$HANDLING
 70
     1
  9
$HANDSEED
  5
3A
  9
$SURFTAB1
 70
     6
  9
$SURFTAB2
 70
     6
  9
$SURFTYPE
 70
     6
  9
$SURFU
 70
     6
  9
$SURFV
 70
     6
  9
$UCSNAME
  2

  9
$UCSORG
 10
0.0
 20
0.0
 30
0.0
  9
$UCSXDIR
 10
1.0
 20
0.0
 30
0.0
  9
$UCSYDIR
 10
0.0
 20
1.0
 30
0.0
  9
$PUCSNAME
  2

  9
$PUCSORG
 10
0.0
 20
0.0
 30
0.0
  9
$PUCSXDIR
 10
1.0
 20
0.0
 30
0.0
  9
$PUCSYDIR
 10
0.0
 20
1.0
 30
0.0
  9
$USERI1
 70
     0
  9
$USERI2
 70
     0
  9
$USERI3
 70
     0
  9
$USERI4
 70
     0
  9
$USERI5
 70
     0
  9
$USERR1
 40
0.0
  9
$USERR2
 40
0.0
  9
$USERR3
 40
0.0
  9
$USERR4
 40
0.0
  9
$USERR5
 40
0.0
  9
$WORLDVIEW
 70
     1
  9
$SHADEDGE
 70
     3
  9
$SHADEDIF
 70
    70
  9
$TILEMODE
 70
     1
  9
$MAXACTVP
 70
    16
  9
$PINSBASE
 10
0.0
 20
0.0
 30
0.0
  9
$PLIMCHECK
 70
     0
  9
$PEXTMIN
 10
1.000000E+20
 20
1.000000E+20
 30
1.000000E+20
  9
$PEXTMAX
 10
-1.000000E+20
 20
-1.000000E+20
 30
-1.000000E+20
  9
$PLIMMIN
 10
0.0
 20
0.0
  9
$PLIMMAX
 10
12.0
 20
9.0
  9
$UNITMODE
 70
     0
  9
$VISRETAIN
 70
     0
  9
$PLINEGEN
 70
     0
  9
$PSLTSCALE
 70
     1
  9
$TREEDEPTH
 70
  3020
  9
$PICKSTYLE
 70
     1
  9
$CMLSTYLE
  2
STANDARD
  9
$CMLJUST
 70
     0
  9
$CMLSCALE
 40
1.0
  9
$PROXYGRAPHICS
 70
     1
  9
$MEASUREMENT
 70
     0
  0
ENDSEC
  0
SECTION
  2
CLASSES
  0
CLASS
  1
DICTIONARYVAR
  2
AcDbDictionaryVar
  3
"AutoCAD"
 90
        0
280
     0
281
     0
  0
ENDSEC
  0
SECTION
  2
TABLES
  0
TABLE
  2
VPORT
  5
12
100
AcDbSymbolTable
 70
     2
  0
VPORT
  5
39
100
AcDbSymbolTableRecord
100
AcDbViewportTableRecord
  2
*ACTIVE
 70
     0
 10
0.0
 20
0.0
 11
1.0
 21
1.0
 12
-1020.64186
 22
550.973497
 13
0.0
 23
0.0
 14
1.0
 24
1.0
 15
0.0
 25
0.0
 16
0.0
 26
0.0
 36
1.0
 17
0.0
 27
0.0
 37
0.0
 40
1708.26929
 41
1.906639
 42
50.0
 43
0.0
 44
0.0
 50
0.0
 51
0.0
 71
     0
 72
   100
 73
     1
 74
     1
 75
     0
 76
     0
 77
     0
 78
     0
  0
ENDTAB
  0
TABLE
  2
LTYPE
  5
D
100
AcDbSymbolTable
 70
     1
  0
LTYPE
  5
E
100
AcDbSymbolTableRecord
100
AcDbLinetypeTableRecord
  2
BYBLOCK
 70
     0
  3

 72
    65
 73
     0
 40
0.0
  0
LTYPE
  5
F
100
AcDbSymbolTableRecord
100
AcDbLinetypeTableRecord
  2
BYLAYER
 70
     0
  3

 72
    65
 73
     0
 40
0.0
  0
LTYPE
  5
5
100
AcDbSymbolTableRecord
100
AcDbLinetypeTableRecord
  2
CONTINUOUS
 70
     0
  3
Solid line
 72
    65
 73
     0
 40
0.0
  0
ENDTAB
  0
TABLE
  2
LAYER
  5
A
100
AcDbSymbolTable
 70
     3
  0
LAYER
  5
4
100
AcDbSymbolTableRecord
100
AcDbLayerTableRecord
  2
0
 70
     0
 62
   -10
  6
CONTINUOUS
  0
LAYER
  5
1F
100
AcDbSymbolTableRecord
100
AcDbLayerTableRecord
  2
BRIDGE
 70
     0
 62
     1
  6
CONTINUOUS
  0
LAYER
  5
1B
100
AcDbSymbolTableRecord
100
AcDbLayerTableRecord
  2
SETUP714
 70
     0
 62
   -12
  6
CONTINUOUS
  0
ENDTAB
  0
TABLE
  2
STYLE
  5
B
100
AcDbSymbolTable
 70
     1
  0
STYLE
  5
C
100
AcDbSymbolTableRecord
100
AcDbTextStyleTableRecord
  2
STANDARD
 70
     0
 40
0.0
 41
1.0
 50
0.0
 71
     0
 42
0.2
  3
txt
  4

  0
ENDTAB
  0
TABLE
  2
VIEW
  5
10
100
AcDbSymbolTable
 70
     0
  0
ENDTAB
  0
TABLE
  2
UCS
  5
11
100
AcDbSymbolTable
 70
     0
  0
ENDTAB
  0
TABLE
  2
APPID
  5
14
100
AcDbSymbolTable
 70
     1
  0
APPID
  5
15
100
AcDbSymbolTableRecord
100
AcDbRegAppTableRecord
  2
ACAD
 70
     0
  0
ENDTAB
  0
TABLE
  2
DIMSTYLE
  5
16
100
AcDbSymbolTable
 70
     1
  0
DIMSTYLE
105
1D
100
AcDbSymbolTableRecord
100
AcDbDimStyleTableRecord
  2
STANDARD
 70
     0
  3

  4

  5

  6

  7

 40
1.0
 41
0.18
 42
0.0625
 43
0.38
 44
0.18
 45
0.0
 46
0.0
 47
0.0
 48
0.0
140
0.18
141
0.09
142
0.0
143
25.4
144
1.0
145
0.0
146
1.0
147
0.09
 71
     0
 72
     0
 73
     1
 74
     1
 75
     0
 76
     0
 77
     0
 78
     0
170
     0
171
     2
172
     0
173
     0
174
     0
175
     0
176
     0
177
     0
178
     0
270
     2
271
     4
272
     4
273
     2
274
     2
340
C
275
     0
280
     0
281
     0
282
     0
283
     1
284
     0
285
     0
286
     0
287
     3
288
     0
  0
ENDTAB
  0
TABLE
  2
BLOCK_RECORD
  5
1
100
AcDbSymbolTable
 70
     0
  0
BLOCK_RECORD
  5
2
100
AcDbSymbolTableRecord
100
AcDbBlockTableRecord
  2
*MODEL_SPACE
  0
BLOCK_RECORD
  5
7
100
AcDbSymbolTableRecord
100
AcDbBlockTableRecord
  2
*PAPER_SPACE
  0
ENDTAB
  0
ENDSEC
  0
SECTION
  2
BLOCKS
  0
BLOCK
  5
3
100
AcDbEntity
  8
0
 62
     1
100
AcDbBlockBegin
  2
*MODEL_SPACE
 70
     0
 10
0.0
 20
0.0
 30
0.0
  3
*MODEL_SPACE
  1

  0
ENDBLK
  5
6
100
AcDbEntity
  8
0
 62
     1
100
AcDbBlockEnd
  0
BLOCK
  5
8
100
AcDbEntity
 67
     1
  8
0
 62
     1
100
AcDbBlockBegin
  2
*PAPER_SPACE
 70
     0
 10
0.0
 20
0.0
 30
0.0
  3
*PAPER_SPACE
  1

  0
ENDBLK
  5
9
100
AcDbEntity
 67
     1
  8
0
 62
     1
100
AcDbBlockEnd
  0
ENDSEC
  0
SECTION
  2
ENTITIES
  0
TEXT
  5
1E
100
AcDbEntity
  8
BRIDGE
  6
CONTINUOUS
 62
     9
100
AcDbText
 10
-1551.382935
 20
954.072815
 30
0.0
 40
25.0
  1
PIER 10
100
AcDbText
  0
LINE
  5
20
100
AcDbEntity
  8
BRIDGE
  6
CONTINUOUS
 62
    15
100
AcDbLine
 10
53.255478
 20
534.052246
 30
0.0
 11
-2256.094238
 21
974.625977
 31
0.0
  0
LINE
  5
21
100
AcDbEntity
  8
BRIDGE
  6
CONTINUOUS
 62
    15
100
AcDbLine
 10
63.375011
 20
587.095642
 30
0.0
 11
-2245.974854
 21
1027.669434
 31
0.0
  0
LINE
  5
22
100
AcDbEntity
  8
BRIDGE
  6
CONTINUOUS
 62
    15
100
AcDbLine
 10
33.85997
 20
432.385773
 30
0.0
 11
-2275.489746
 21
872.959534
 31
0.0
  0
LINE
  5
23
100
AcDbEntity
  8
BRIDGE
  6
CONTINUOUS
 62
    15
100
AcDbLine
 10
43.979504
 20
485.429199
 30
0.0
 11
-2265.370361
 21
926.00293
 31
0.0
  0
TEXT
  5
24
100
AcDbEntity
  8
BRIDGE
  6
CONTINUOUS
 62
     9
100
AcDbText
 10
-2275.029785
 20
1072.549561
 30
0.0
 40
25.0
  1
PIER 7
100
AcDbText
  0
LINE
  5
25
100
AcDbEntity
  8
BRIDGE
  6
CONTINUOUS
 62
    15
100
AcDbLine
 10
-2256.094238
 20
974.625977
 30
0.0
 11
-2245.974854
 21
1027.669434
 31
0.0
  0
LINE
  5
26
100
AcDbEntity
  8
BRIDGE
  6
CONTINUOUS
 62
    15
100
AcDbLine
 10
-2275.489746
 20
872.959534
 30
0.0
 11
-2265.370361
 21
926.00293
 31
0.0
  0
LINE
  5
27
100
AcDbEntity
  8
BRIDGE
  6
CONTINUOUS
 62
    15
100
AcDbLine
 10
-2034.545044
 20
826.992432
 30
0.0
 11
-2024.425659
 21
880.035889
 31
0.0
  0
TEXT
  5
28
100
AcDbEntity
  8
BRIDGE
  6
CONTINUOUS
 62
     9
100
AcDbText
 10
-2054.646484
 20
1069.164551
 30
0.0
 40
25.0
  1
PIER 8
100
AcDbText
  0
LINE
  5
29
100
AcDbEntity
  8
BRIDGE
  6
CONTINUOUS
 62
    15
100
AcDbLine
 10
-2015.149536
 20
928.658875
 30
0.0
 11
-2005.030151
 21
981.702332
 31
0.0
  0
LINE
  5
2A
100
AcDbEntity
  8
BRIDGE
  6
CONTINUOUS
 62
    15
100
AcDbLine
 10
-1528.634277
 20
835.842468
 30
0.0
 11
-1518.514771
 21
888.885803
 31
0.0
  0
LINE
  5
2B
100
AcDbEntity
  8
BRIDGE
  6
CONTINUOUS
 62
    15
100
AcDbLine
 10
-1793.60083
 20
781.025757
 30
0.0
 11
-1783.481201
 21
834.068848
 31
0.0
  0
LINE
  5
2C
100
AcDbEntity
  8
BRIDGE
  6
CONTINUOUS
 62
    15
100
AcDbLine
 10
-1548.029785
 20
734.176025
 30
0.0
 11
-1537.910278
 21
787.21936
 31
0.0
  0
TEXT
  5
2D
100
AcDbEntity
  8
BRIDGE
  6
CONTINUOUS
 62
     9
100
AcDbText
 10
-1794.791382
 20
984.538269
 30
0.0
 40
25.0
  1
PIER 9
100
AcDbText
  0
LINE
  5
2E
100
AcDbEntity
  8
BRIDGE
  6
CONTINUOUS
 62
    15
100
AcDbLine
 10
-1774.205322
 20
882.6922
 30
0.0
 11
-1764.085693
 21
935.735291
 31
0.0
  0
LINE
  5
2F
100
AcDbEntity
  8
BRIDGE
  6
CONTINUOUS
 62
    15
100
AcDbLine
 10
-146.148163
 20
572.094238
 30
0.0
 11
-136.028656
 21
625.13739
 31
0.0
  0
LINE
  5
30
100
AcDbEntity
  8
BRIDGE
  6
CONTINUOUS
 62
    15
100
AcDbLine
 10
53.255478
 20
534.052246
 30
0.0
 11
63.375011
 21
587.095642
 31
0.0
  0
LINE
  5
31
100
AcDbEntity
  8
BRIDGE
  6
CONTINUOUS
 62
    15
100
AcDbLine
 10
-165.543671
 20
470.427765
 30
0.0
 11
-155.424164
 21
523.470947
 31
0.0
  0
LINE
  5
32
100
AcDbEntity
  8
BRIDGE
  6
CONTINUOUS
 62
    15
100
AcDbLine
 10
33.85997
 20
432.385773
 30
0.0
 11
43.979504
 21
485.429199
 31
0.0
  0
TEXT
  5
33
100
AcDbEntity
  8
BRIDGE
  6
CONTINUOUS
 62
     9
100
AcDbText
 10
-1301.395752
 20
920.22229
 30
0.0
 40
25.0
  1
PIER 11
100
AcDbText
  0
LINE
  5
34
100
AcDbEntity
  8
BRIDGE
  6
CONTINUOUS
 62
    15
100
AcDbLine
 10
-1302.458862
 20
687.326416
 30
0.0
 11
-1292.339355
 21
740.369812
 31
0.0
  0
LINE
  5
35
100
AcDbEntity
  8
BRIDGE
  6
CONTINUOUS
 62
    15
100
AcDbLine
 10
-1283.063354
 20
788.992859
 30
0.0
 11
-1272.943848
 21
842.036255
 31
0.0
  0
LINE
  5
36
100
AcDbEntity
  8
BRIDGE
  6
CONTINUOUS
 62
    15
100
AcDbLine
 10
-1059.421997
 20
640.960449
 30
0.0
 11
-1049.30249
 21
694.003662
 31
0.0
  0
LINE
  5
37
100
AcDbEntity
  8
BRIDGE
  6
CONTINUOUS
 62
    15
100
AcDbLine
 10
-1040.026489
 20
742.626892
 30
0.0
 11
-1029.906982
 21
795.670105
 31
0.0
  0
TEXT
  5
38
100
AcDbEntity
  8
BRIDGE
  6
CONTINUOUS
 62
     9
100
AcDbText
 10
-1071.144531
 20
866.061523
 30
0.0
 40
25.0
  1
PIER 12
100
AcDbText
  0
ENDSEC
  0
SECTION
  2
OBJECTS
  0
DICTIONARY
  5
1A
100
AcDbDictionary
  3
ACAD_GROUP
350
18
  3
ACAD_MLINESTYLE
350
19
  0
DICTIONARY
  5
18
102
{ACAD_REACTORS
330
1A
102
}
100
AcDbDictionary
  0
DICTIONARY
  5
19
102
{ACAD_REACTORS
330
1A
102
}
100
AcDbDictionary
  3
STANDARD
350
1C
  0
MLINESTYLE
  5
1C
102
{ACAD_REACTORS
330
19
102
}
100
AcDbMlineStyle
  2
STANDARD
 70
     0
  3

 62
   256
 51
90.0
 52
90.0
 71
     2
 49
0.5
 62
   256
  6
BYLAYER
 49
-0.5
 62
   256
  6
BYLAYER
  0
ENDSEC
  0
EOF
